Guitar Tabs by Composers

Johann Sebastian Bach

Frederic Francois Chopin

Francisco Tarrega

Fernando Sor

Isaac Albeniz

Agustin Pio Barrios Mangore

Eduardo Sainz De La Maza

Mauro Giuliani

Stephen Foster

Edvard Grieg

Niccolo Paganini

Domenico Scarlatti

Ludwig Van Beethoven

Jacques Offenbach

Asto Piazzolla

Ralf Bauer - M�rkens

W. A. Mozart

Konstantine Andeson

Matteo Carcassi

Ferdinando Carulli

Miscellaneous


Other Pages

Seung Kook Oh

Guitar Chords

Best of Classical Guitar

Link To Us




Bookmark Us

Digg This
Add to Google
Add to del.icio.us

Home >> Domenico Scarlatti


Sonata in Dm K213

Ben Nickson
brn20@cam.ac.uk

Sonata in Dm K213 - Domenico Scarlatti (1685-1757)

#----------------------------------PLEASE NOTE--------------------------------#
#This file is the author\'s own work and represents their interpretation of the#
#song. You may only use this file for private study, scholarship, or research.#
#-----------------------------------------------------------------------------#
#-- File created with Instab - http://www.pconline.com/~smcarey/instab.html --#
#-----------------------------------------------------------------------------#

Author/Artist: Domenico Scarlatti (1685-1757)
Title: Sonata K213 in Dm
Transcribed by: Ben Nickson
Email: brn20@cam.ac.uk

[fingerings updated June 2003]
[resubmitted, with updated fingerings: 2007]

This is a difficult piece, but its unusual and beautiful harmonies are worth 
the effort. 
Try to sustain each note for its proper length (the spaces between notes 
equates to duration). 
I\'m sorry about some of the fingerings, but I couldn\'t see how to change them
without losing the harmonic structure...any feedback is appreciated.


-----------------------|-10-8-----------------------------|-------------------
-3----6----10----15----|------11-10---------------------8-|-------------------
-----------------------|--0---------12----9-9-10---9-9-10-|-------10-9----9---
-----------------------|---------11----12--------8--------|-------------7-----
-----------------------|----------------------------------|-10----------------
-----------------------|----------------------------------|-------------------
                                                                              

------------9-9--10--|---8-8-6-6--5-5-----------------3-|-3-1-1-0-------------
-------6-10----------|----------------8-8-6-6-5-5-6-6---|---------5-3-3-2-2---
-7-6-7---------------|-0-------6--------7-------3-------|-0-------2-----------
-----0---------------|----------------------------------|-----------------0---
---------------------|----------------------------------|---------------------
---------------------|----------------------------------|---------------------
                                                                              

------|-10-7------------10-10--8-7-7--8--|-8-5-----------8-8---------5--6-----
-3----|------9----3----------------------|-----7---------------11-10----------
------|--------10---4------10--9-7-7--9--|-------8-5-------8----0----6--7-----
------|--9------------6-----7------------|-7---7-----7-4-------12-11----------
------|----------------------------0-----|-----------------10-----------------
------|----------------------------------|---------------------------5--------
                                                                              

-6-3-----------3-3--1-0-0--1--|----------------10-10--9-7-7--9--|-5----0-1-0--
-----5-2---------5--3-2-2--3--|---------------------------------|------2-3-2--
-0-------3--------------------|----------------10-10--9-7-7--9--|-------------
-----------5-----0--0-0-------|-----------3-6------7--7---------|-------------
-------------4----------------|-------2-5---------------0-0-----|-------------
------------------------0-----|-0-3-6---------------------------|-------------
                                                                              

-5-3---1---0-1-0-5-3-----|---6----5---3----1---0--------------|---------------
-----5-3---2-3-2-----5-6-|-5--------3---2----3---0--3---1-----|------0-1-0-5--
-0-4-----2-------0-3---7-|-6---6-----------------1----2---3-2-|------1-2-1----
-------------------------|-7---5----3---2----0---2----3-------|-2----------0--
-------------------------|------------------------------------|---------------
-------------------------|------------------------------------|---------------
                                                                              

-----------------------|---0-1-0---0-1-0---0-1-0---0-1-0-|---------5-------5--
-3-------------5-----1-|-0-----------------------0-------|---5-6-5---5-6-5----
---4-5---4-5-4---7-4-2-|-1-------1-------2---------------|-5-------5-------3--
-3---7---6-7-6-0-3-----|-2-------0---------------0-------|---------5----------
-------7---------------|-----------------3-------2-------|-0------------------
-----------------------|---------------------------------|--------------------
                                                                              

-------5-------|-5-------5----------7-8-10-8-7------|----8---------7--------1-
-3-5-3---------|-6---------------0-------------10-9-|-10---9-10----------0----
-------5-5-7-5-|---4-5-4---2-4-2-----------9-7------|----------------8-9-2----
---------------|-0---------------0-------------10-6-|-7---------7--------0----
-------7-------|---------------------------7--------|-0-----------------------
---------------|------------------------------------|-----------10------------
                                                                              

-0-----------|------------------------------------|-------0-------------------
---3---------|-1-------------------3----1-0-------|---------1-----0-----------
-----5-4-2-4-|----2----2-4-----5-4-5--2---------7-|-5-4-2-----4-2---5---------
-----2-------|------1------2------------0---2-----|---------0---2--------7----
-------------|------------------------------------|-----3------------------6--
-------------|---------------6----------------6---|-7-------------------------
                                                                              

----------|------------------------------------|------8------------7----------
----------|---3---1-0--------3-------5-3-1-0-3-|--------9-10------------------
--------5-|-4-5----------------5-4---5-4-2-1-4-|-5-------------------9-10-----
--9-------|---7-1--------2---------7---1---2---|-7-----------7----------------
----7-----|------------------------3-----------|-0----------------------------
------6---|----------------5---7---------------|-------------10---------------
                                                                              

------3-----------------|------8------------7-----------3-----------------|---
-0----------------3-----|--------9-10--------------0---------------3------|---
-2------4-5---------2-1-|---------------------9-10-2------4-5--------2-1--|---
-0----------2-----------|-7-----------7------------0----------2-----------|---
------------------------|-0-----------------------------------------------|---
------------------------|-------------10----------------------------------|---
                                                      CV_____________________ 

---------------------------------|-------------------|------------7-----------
---------------------------------|-------------------|------5-7-5-----5-------
-2-4-5-----4-2-1-2---------2---1-|-1--2---2----------|--------------7---7-6---
-------2-3---------2-3-----------|--------2----------|------------------------
-0---3---5---2---3-----5-3---2---|-0----0------------|------------------------
---------------------0---2---2---|-------------------|-7----------6-------7---
 _______________________________                                              

-------7-------|---5-7-5---5-7-5------7------3-5-3-|-2----------2-2-----------
-5-7-5-----5---|-------------------10---10-5-------|--------------5-----3-----
---------7---7-|-6-------6-------7-----------------|------2-4-2---2-4-2-------
---------------|---------5-------7-----------------|-0------------------------
---------------|-----------------9---------4-------|------------3-------2-----
-------6-------|-7---------------------------------|--------------------------
                                                                              

---------------|-----------------10-7------------10-|-10--8-7-7--8--8---------
-------3-3-----|-----------0----------9-------------|-----------------10-7----
-0-2-0---5-----|-4-------4-2------------10-7--------|-10--9-7-7--9---------8--
---------4-5-4-|---2-3-2---0-2-0-------------9-6----|-7-------------7---------
-------0-------|-----------------7------------------|---------0---------------
---------------|-5-------3--------------------------|-------------------------
                                                                              

-------8-|-8--6-5-5--6--6-3-------------|----------------------------10-|-----
---------|--------2--3------5-----------|-1----------------------3-6----|-----
-5-------|-8--7-6-------------5-3-----3-|-3--2-0-0--2----------4--------|-----
---7-----|-5------------5---------5-2---|-3----------------0-3----------|-----
-----9---|------------------------------|----------------2--------------|-----
---------|--------5---------------------|--------3-----5----------------|-----
                                                                              

-7--10-10----7--8---------------10-|-7--10-10----7--8--5-3-----3-------|------
-------13-13----------------3-6----|-------13-13-----------------6-5---|------
-10-10-10-9--7--9---------4--------|-10-10-10-9--7--9------------3-6-7-|------
----------------------0-3----------|-------------------------2-5-------|------
--------------------2--------------|---------------------1-4---------7-|------
------------------5----------------|-------------------5---------------|------
                                                                              

------0------5-3-------------|------0------------10-----------6-----|---------
----5-3-3--3-----------6-5-3-|----5-3-3--3--3-------9-10------------|---------
-6--0-0-6--------------3-5---|-6--0-0-6------------------7------6-7-|---------
-5----3-3--3-------2-5-----2-|-5----3-3--3--3-----------------------|---------
--------7------1-4-----------|--------7------------------8----------|---------
-------------5---------------|--------------------------------------|---------
                                              CV_____________________         

-------------------------10-----------6-----|----------------------------5-3--
------5-6-8-8-6-5-----------9-10------------|------5-6-8-8-6-5---5-----6------
-7----------7-----7-6------------7------6-7-|-7----------7-----7-----6-7-0-3--
-5----------6-------------------------------|-5----------6---------7----------
---------------------------------8----------|---------------------------------
--------------------7-----------------------|--------------------7------------
                                                                              

-----|-5-------5-3-----5-------5-3-----|-0-6----5---3---1-1-----------------|-
-5-6-|---5-6-5-----5-6---5-6-5-----5-6-|----------3---2-----3---3-5---------|-
---7-|---6-7-6---3---7---6-7-6---3---7-|-6---6----------------1-----2----10-|-
-----|---------5---------------5-------|-7---5----3---2---0-----------------|-
-----|---------------------------------|------------------------------------|-
-----|---------------------------------|------------------------------11----|-
                                                                              

----------------------------5---------|-------------------------------------|-
---8-----6--------8-----------6-5-3-5-|-6--------5-----6-5-8-----6--------8-|-
-9-10------9--------10-9----------2---|-----7--7-----------10------9--------|-
---12-7------7------0----12---5-------|--------6---7-------12-6------7------|-
-------------------------8------------|--------------4----------------------|-
---------------11---------------------|--------------------------------11---|-
                                                                              

---------5-----------10-----------6-----|----------------------10-------------
-----------6-5-3-2-3----9-10------------|------5-6-8-6-5----------9-10--------
-10-9----------2-------------7------6-7-|-7--------------7-6-7---------7------
-0----12---5-------0--------------------|-5----------7-------0----------------
------8----------------------8----------|------------------------------8------
----------------------------------------|-------------------------------------
                                                                              

-6---|------------------------------------|-------------------6---5---3---1-|-
-----|------5-6-8-6-5---------------------|---------------------------------|-
---6-|-7--------------7-6-7---------------|-------------------3-------0---3-|-
-----|-5----------7---------8---7---5---3-|---2-------------------7---------|-
-----|--------------------5---------------|-------5---4---5-----------------|-
-----|------------------------5---3---2---|-0---5---7---7---0---5---0---2---|-
                                                                              

------------------------------|-----------------------------------------------
---5---3-------2-2--3--------3********----------------------------------------
-----------2---0-0--2------2--|-----------------------------------------------
---2---0-----2---2--3----0-3--|-----------------------------------------------
---------0---0-----------0----|-----------------------------------------------
-0---5-----------0-----0------|-----------------------------------------------

| Back | | Top of page |