Guitar Tabs by Composers

Johann Sebastian Bach

Frederic Francois Chopin

Francisco Tarrega

Fernando Sor

Isaac Albeniz

Agustin Pio Barrios Mangore

Eduardo Sainz De La Maza

Mauro Giuliani

Stephen Foster

Edvard Grieg

Niccolo Paganini

Domenico Scarlatti

Ludwig Van Beethoven

Jacques Offenbach

Asto Piazzolla

Ralf Bauer - M�rkens

W. A. Mozart

Konstantine Andeson

Matteo Carcassi

Ferdinando Carulli

Miscellaneous


Other Pages

Seung Kook Oh

Guitar Chords

Best of Classical Guitar

Link To Us




Bookmark Us

Digg This
Add to Google
Add to del.icio.us

Home >> Fernando Sor


Op 6 No 4 in G

********************************************************************************
Study Op. 6, No. 4                                                              
Fernando Sor (1778-1839)                                                        
Tabbed by Robert Dyball (robertdyball@optushome.com.au) 4/3/03                  
********************************************************************************
                                                                                
G major 3/4                                                                     

I didn't think fingering was really needed, but e-mail me if you get desperate! 

                                                                       
  cIII                               cV                                
 1  |  & a |    |       sim.                                           
e||-3-----------7--|-3-----------7--|-5-----------8--|-5-----------8--|
B||-3-----------0--|-3-----------0--|-5-----------5--|-5-----------5--|
G||-4-----------7--|-4-----------7--|-5-----------5--|-5-----------5--|
D||-5--5-5-5----5--|-5--5-5-5----5--|-5--5-5-5----5--|-5--5-5-5----5--|
A||----p-i-p-------|----------------|----------------|----------------|
E||----------------|----------------|----------------|----------------|
                                                                       
                                                                       
 5                                   cIII                              
e||-------------5--|-------------5--|-3-----------5--|-7-----------5--|
B||-7--------------|-7--------------|----------------|----------------|
G||-5-----------5--|-5-----------5--|-4-----------5--|-7-----------5--|
D||-5--5-5-5----5--|-5--5-5-5----5--|-5--5-5-5----5--|-5--5-5-5----5--|
A||----------------|----------------|----------------|----------------|
E||----------------|----------------|----------------|----------------|
                                                                       
                                                                       
 9                                                     cII             
e||-3-----------5--|-3-----------7--|-5-----------5--|-5-----------10-|
B||----------------|-------------0--|-5-----------5--|-3-----------7--|
G||-4-----------5--|-4-----------7--|-6-----------6--|-2--------------|
D||-5--5-5-5----5--|-5--5-5-5----5--|-5--5-5-5----5--|-4--4-4-4----0--|
A||----------------|----------------|----------------|----------------|
E||----------------|----------------|----------------|----------------|
                                                                       
                                                                       
 13                                                                    
e||-7-----------10-|-9-----------12-|-10----------14-|-10------------||
B||-8-----------8--|-8--------------|----------------|---------------||
G||-0--0-0-0----0--|-9-----------12-|-11----------14-|-11-----------*||
D||----------------|-7--7-7-7-------|-0--0-0-0----0--|-0------------*||
A||----------------|-------------0--|----------------|---------------||
E||----------------|----------------|----------------|---------------||
                                                                       
                                                                       
 17                                                                    
e||--5-----------6--|-7-----------7--|-8-----------8--|-5--------------|
B||--7-----------7--|-8-----------9--|-10----------10-|-7--------------|
G||*----7-7-7----7--|----7-7-7----7--|----7-7-7----7--|----7-7-7----7--|
D||*-0--------------|-0--------------|-0--------------|-0--------------|
A||-----------------|----------------|----------------|----------------|
E||-----------------|----------------|----------------|----------------|
                                                                        
                                                                        
 21                  cX                                                 
e||-7-----------7--|-10-------------8--|-5-----------5--|-5--------------|
B||-8-----------8--|-12-------------10-|-7-----------7--|-7--------------|
G||----7-7-7----7--|----------------7--|----7-7-7----7--|----7-7-7----7--|
D||-0--------------|----12-12-12-------|-0--------------|-0--------------|
A||----------------|-------------------|----------------|----------------|
E||----------------|-10----------------|----------------|----------------|
                                                                          
                                                                          
 25                                                                       
e||-5-----------6--|-7-----------7--|-8-----------8--|-5--------------|
B||-7-----------7--|-8-----------9--|-10----------10-|-7--------------|
G||----7-7-7----7--|----7-7-7----7--|----7-7-7----7--|----7-7-7----7--|
D||-0--------------|-0--------------|-0--------------|-0--------------|
A||----------------|----------------|----------------|----------------|
E||----------------|----------------|----------------|----------------|
                                                                       
                                                                       
 29                                  |    |    |    |    |    |        
e||-6-----------6--|-3----------3--|-2----10---9--|-8----5----7--|
B||-8-----------8--|-5----------5--|-3------------|--------------|
G||----7-7-7----7--|----6-6-6---6--|--------------|--------------|
D||-0--------------|-0-------------|-0------------|--------------|
A||----------------|---------------|--------------|--------------|
E||----------------|---------------|--------------|--------------|
                                                                 
                                                                 
 33                                                                    
e||-3-----------3--|-7-----------7--|-5-----------5--|-8--------------|
B||-3-----------3--|-3-----------3--|-5-----------5--|-5-----------5--|
G||-4-----------4--|-4-----------4--|-5-----------5--|-5-----------5--|
D||-5--5-5-5----5--|-5--5-5-5----5--|-5--5-5-5----5--|-5--5-5-5----5--|
A||----------------|----------------|----------------|----------------|
E||----------------|----------------|----------------|----------------|
                                                                       
                                                                       
 37                                      cVIII               
e||-7-----------7--|-10--------------10-|-8--------------12-|
B||-6-----------6--|-0---------------0--|----------------8--|
G||-7-----------7--|-10--------------10-|-9--------------9--|
D||-5--5-5-5----5--|--------------------|-------------------|
A||----------------|-10--10-10-10----10-|----10-10-10----10-|
E||----------------|--------------------|-8--------------8--|
                                                             
                                                             
 40                                                                       
e||-8-----------------|-9-----------9--|-9-----------9--|-10-------------|
B||-------------------|-8-----------8--|-8-----------8--|-0--------------|
G||-9--------------0--|-0--0-0-0----0--|-0--0-0-0----0--|-0--------------|
D||-------------------|-8-----------8--|-8-----------8--|-0--0-0-0----0--|
A||----10-10-10-------|-6-----------6--|-6-----------6--|----------------|
E||-8-----------------|----------------|----------------|----------------|
                                                                          
                                                                           
 44               cI                                                       
e||------7----3--|-1-----------1--|-3p1---0----1--|-3-----------3--|-3---||
B||--------------|-1-----------1--|-1-------------|-0-----------0--|-0---||
G||--------------|-2-----------2--|-2-------------|-0-----------0--|-0--*||
D||-0------------|-0--0-0-0----0--|-0-------------|----0-0-0----0--|----*||
A||--------------|----------------|---------------|----------------|-----||
E||--------------|----------------|---------------|-3-----------3--|-3---||

| Back | | Top of page |