Guitar Tabs by Composers

Johann Sebastian Bach

Frederic Francois Chopin

Francisco Tarrega

Fernando Sor

Isaac Albeniz

Agustin Pio Barrios Mangore

Eduardo Sainz De La Maza

Mauro Giuliani

Stephen Foster

Edvard Grieg

Niccolo Paganini

Domenico Scarlatti

Ludwig Van Beethoven

Jacques Offenbach

Asto Piazzolla

Ralf Bauer - M�rkens

W. A. Mozart

Konstantine Andeson

Matteo Carcassi

Ferdinando Carulli

Miscellaneous


Other Pages

Seung Kook Oh

Guitar Chords

Best of Classical Guitar

Link To Us




Bookmark Us

Digg This
Add to Google
Add to del.icio.us

Home >> Fernando Sor


Op 6 No 5 in C

Fernando Sor
Estudio Opus 6 Number 5 in C
Tab by Luís Quinta "lsq7@hotmail.com"
Tuning : E A D G B E 	Time Signature: 4/4

 |       |       |       |        |       |       |       |        
|------------0---------------0---|------------1---------------1---|
|----------1---1-----------1---1-|----------1---1-----------1---1-|
|--------0---------------0-------|--------2---------------2-------|
|----2---------------2-----------|----3---------------3-----------|
|3---------------3---------------|3---------------3---------------|
|--------------------------------|--------------------------------|

 |       |       |       |        |       |       |       |        
|------------1---------------1---|------------0---------------0---|
|----------0---0-----------0---0-|----------1---1-----------1---1-|
|--------0---------------0-------|--------0---------------0-------|
|----0---------------0-----------|----2---------------2-----------|
|3---------------3---------------|3---------------3---------------|
|--------------------------------|--------------------------------|

 |       |       |       |        |       |       |       |        
|------------0---------------5---|------------5-------------0-3p0-|
|----------1---1-----------5---5-|----------7---7---------0-------|
|--------2---------------5-------|--------5-----------0-----------|
|----2---------------7-----------|----7-----------2---------------|
|0---------------0---------------|5-------------------------------|
|--------------------------------|--------------------------------|

 |       |       |       |        |       |       |       |        
|------------0---------------3---|------------2-------------------|
|----------1---1-----------5---5-|----------3---3-----------------|
|--------0---------------3-------|--------2---------------4-------|
|----2---------------5-----------|----4---------------------------|
|3---------------4---------------|5---------------5---------------|
|--------------------------------|--------------------------------|

 |       |       |       |        |       |       |       |        
|------------5-------------------|--------------------------------|
|----------------------------1---|------------0---------------3---|
|----------5---5-----------2---2-|----------0---0-----------4---4-|
|--------0---------------0-------|--------0---------------5-------|
|----0---------------0-----------|----2---------------5-----------|
|2---------------2---------------|3---------------3---------------|

 |       |       |       |        |       |       |       |        
|------------5-------------------|--------------------------------|
|----------------------------1---|------------0---------------3---|
|----------5---5-----------2---2-|----------0---0-----------4---4-|
|--------0---------------0-------|--------0---------------5-------|
|----0---------------0-----------|----2---------------5-----------|
|2---------------2---------------|3---------------3---------------|

 |       |       |       |        |       |       |       |        
|------------3---------------1---|------------0---------------5---|
|----------3---3-----------3---3-|----------1---1-----------5---5-|
|--------0---------------0-------|--------0---------------5-------|
|----0---------------0-----------|----2---------------------------|
|2---------------2---------------|3-------------------7-----------|
|--------------------------------|----------------5---------------|

 |       |       |       |        |       |       |       |        
|------------3---------------2---|------------2---------------3---|
|----------3---3---------1p3---3-|----1-----1---1-----0-----0---0-|
|--------4-----------2-----------|--------2---------------0-------|
|----5-----------0---------------|1---------------2---------------|
|5-------------------------------|--------------------------------|
|--------------------------------|--------------------------------|


 |       |       |       |        |       |       |       |        
|------------1---------------1---|------------0---------------1---|
|----------3---3-----------3---3-|----------1---1-----------5---5-|
|--------0---------------1-------|--------2---------------3-------|
|----0---------------0-----------|----2---------------5-----------|
|2---------------2---------------|3---------------4---------------|
|--------------------------------|--------------------------------|

 |       |       |       |        |       |       |       |        
|------------3---------------1---|----------3---------------------|
|----------3---3---------1p3---3-|----------0---------0-----------|
|----0---4-----------2-----------|------------------0---0---------|
|3---------------3---------------|----------------0---------------|
|--------------------------------|--------------------------------|
|--------------------------------|3-----------------------3-------|

 |       |       |       |        |       |       |       |        
|------------3---------------3---|------------3---------------1---|
|----1-----1---1-----3-----3---3-|----5-----5---5-----3-----3---3-|
|--------0---------------3-------|--------2---------------2-------|
|2---------------0---------------|----------------0---------------|
|--------------------------------|4-------------------------------|
|--------------------------------|--------------------------------|

 |       |       |       |        |       |       |       |        
|------------0---------------0---|------------3---------------1---|
|----3-----3---3-----2-----2---2-|----2-----2---2-----3-----3---3-|
|--------3---------------2-------|--------2---------------2-------|
|--------------------------------|0---------------0---------------|
|----------------0---------------|--------------------------------|
|3-------------------------------|--------------------------------|

 |       |       |       |        |       |       |       |        
|------------1---------------1---|------------1---------------0---|
|----3-----3---3-----3-----3---3-|----------3---3-----------1---1-|
|--------2---------------1-------|--------0---------------0-------|
|0-------------------------------|----0---------------2-----------|
|----------------3---------------|2---------------3---------------|
|--------------------------------|--------------------------------|

 |       |       |       |        |       |       |       |        
|------------1-------------------|--------------------------------|
|----------3---3-------------1---|------------0-------------------|
|----2---------------2-----2---2-|----0-----0---0-------------0---|
|--------3---------------1-------|--------0-----------------------|
|--------------------------------|--------------------------------|
|1---------------2---------------|3---------------3---------------|

 |       |       |       |        |       |       |       |        
|------------1---------------1---|------------0---------------0---|
|----------3---3-----------3---3-|----------1---1-----------1---1-|
|--------0---------------0-------|--------0---------------0-------|
|----0---------------0-----------|----2---------------2-----------|
|2---------------2---------------|3---------------3---------------|
|--------------------------------|--------------------------------|

 |       |       |       |        |       |       |       |        
|------------1---------------1---|------------0---------------0---|
|----------3---3-----------3---3-|----------1---1-----------1---1-|
|--------0---------------0-------|--------0---------------0-------|
|----0---------------0-----------|----2---------------2-----------|
|2---------------2---------------|3---------------3---------------|
|--------------------------------|--------------------------------|

 |       |       |       |        |       |       |       |        
|------------3---------------3---|------------1---------------5---|
|----------1---1-----------2---2-|----------3---3-----------4---4-|
|--------0---------------3-------|--------2-----------2---5-------|
|----2---------------2-----------|----3---------------------------|
|--------------------------------|--------------------------------|
|0---------------0---------------|1---------------2---------------|

 |       |       |       |        |       |       |       |        
|------------3-------------------|--------------------------------|
|----------5---5-------------0---|------------0---------------1---|
|--------5-----------------0---0-|----0-----0---0-----0-----0---0-|
|----5---------------0---3-------|--------3---------------2-------|
|--------------------------------|3---------------3---------------|
|3---------------3---------------|--------------------------------|

 |       |       |       |        |       |       |       |        
|------------3---------------3---|------------1---------------5---|
|----------1---1-----------2---2-|----------3---3-----------4---5-|
|--------3---------------4-------|--------2-----------2---4-------|
|----2---------------2-----------|----3---------------------------|
|--------------------------------|--------------------------------|
|0---------------0---------------|1---------------2---------------|

 |       |       |       |        |       |       |       |        
|------------3-------------------|----------------------------0---|
|----------5---5-------------0---|------------0-------------1---1-|
|--------5-----------------0---0-|----0-----0---0---------0-------|
|----5---------------0---3-------|--------3-----------2-----------|
|--------------------------------|3---------------3---------------|
|3---------------3---------------|--------------------------------|

 |       |       |       |        |       |       |       |        
|------------3---------------1---|------------0---------------3---|
|----------3---3-----------0---0-|----------1---1-----------5---5-|
|--------2---------------0-------|--------0---------------3-------|
|----3---------------0-----------|----2---------------2-----------|
|3---------------3---------------|3---------------3---------------|
|--------------------------------|--------------------------------|

 |       |       |       |        |       |       |       |        
|------------3---------------1---|------------0---------------1---|
|----------3---3-----------0---0-|----------1---1-----------0---0-|
|--------2---------------0-------|--------0---------------0-------|
|----3---------------0-----------|----2---------------0-----------|
|3---------------3---------------|3---------------3---------------|
|--------------------------------|--------------------------------|

 |       |       |       |        |       |       |       |        
|------------0---------------1---|------------1---------------1---|
|----------1---1-----------0---0-|----------0---0-----------0---0-|
|--------0---------------0-------|--------0---------------0-------|
|----2---------------0-----------|----0---------------0-----------|
|3---------------3---------------|3---------------3---------------|
|--------------------------------|--------------------------------|

 |       |       |       |        |       |       |       |        
|------------0---------------0---|------------0-------------------||
|----------1---1-----------1---1-|----------1---1-----------------||
|--------0---------------0-------|--------0-----------------------||
|----2---------------2-----------|----2---------------------------||
|3---------------3---------------|3---------------3---------------||
|--------------------------------|--------------------------------||

| Back | | Top of page |