Guitar Tabs by Composers

Johann Sebastian Bach

Frederic Francois Chopin

Francisco Tarrega

Fernando Sor

Isaac Albeniz

Agustin Pio Barrios Mangore

Eduardo Sainz De La Maza

Mauro Giuliani

Stephen Foster

Edvard Grieg

Niccolo Paganini

Domenico Scarlatti

Ludwig Van Beethoven

Jacques Offenbach

Asto Piazzolla

Ralf Bauer - M�rkens

W. A. Mozart

Konstantine Andeson

Matteo Carcassi

Ferdinando Carulli

Miscellaneous


Other Pages

Seung Kook Oh

Guitar Chords

Best of Classical Guitar

Link To Us




Bookmark Us

Digg This
Add to Google
Add to del.icio.us

Home >> Francisco Tarrega


Adelita

#----------------------------------PLEASE NOTE--------------------------------#
#This file is the author's own work and represents their interpretation of the#
#song. You may only use this file for private study, scholarship, or research.#
#-----------------------------------------------------------------------------#

==============================================================================
          Title: Adelita
         Artist: Francisco Tarrega
Transcribed by : Kevin J. Manges (braumstr@bright.net)
                 (fomerly braumeister@centuryinter.net & kevinm2556@aol.com)
Downloaded From: http://members.tripod.com/~Braumeister/index.htm
         Notes : Hear MIDI & MP3 (mine) also on this site.  
     Difficulty: Moderately easy
         Update: 28 May 99
==============================================================================  

                           Tarrega - Adelita

                              
Transcribed by Kevin J. Manges                     Francisco Tarrega



                                               VII---------|     
E||---12--11--7---------|--10--8-------------|--8--7------------|
B||----------------8----|---------7----------|-------------8----|
G||*---------------9----|--------------9-----|--------8----8----|
D||*--------------------|--------------10----|-------------7----|
A||---------------------|--0-----------------|------------------|
E||---0-----------------|--------------------|--7---------------|
      4    3  1    2       4   2  1    3        3  1       3
                   3                   4        1     2    2
                                                           1


   trill
E|--------------------7--|--12--11--7---------|--10--8-------------|
B|-7h8p7--------5/-8-----|---------------8----|---------7----------|
G|--------9--4-----------|---------------9----|--------------9-----|
D|-----------------------|--------------------|--------------10----|
A|-----------------------|--------------------|--0-----------------|
E|-0---------------------|--0-----------------|--------------------|
   1 2 1  3  2  3  3  2




   VII---------|               Fine     IV--------------    IV-------------|
E|--8p-7------------|---------------||---4-------7--------|--4-------7--------|
B|-------------8\---|--5------------||--------5-----5--7--|-------5-----5--7--|
G|--------8----8----|--4-----------*||*-------4-----6-----|-------4-----6-----|
D|-------------7----|--5-----------*||*-------6-----------|-------6-----------|
A|------------------|---------------||--------------0-----|-------------0-----|
E|--7---------------|-------0-------||---0----------------|--0----------------|
    2     2    3       3                 1    2  4  2  4     1    2  4  2  4    
    1          2       1                      3     3             3     3       
                       2                      4                   4             




 IV---          IX-------|      VII------------------|    IV-------------|
E|--4--7--12--11-11h-12p-11-9-|--9h11p9-7---------------|--4-------7--------|
B|--5-------------------------|------------10--7--------|-------5-----5--7--|
G|--4-------------9-----------|--8----------------8-----|-------4-----6-----|
D|----------------------------|--7-------------------9--|-------6-----------|
A|----------------9-----------|-------------------------|-------------0-----|
E|--0-------------------------|--7----------------------|--0----------------|
    1  4  4   3   3  4  3  1     3 4  3 1  4   1  2  3     1    2  4  2  4
    2             1              2                              3     3
    1             1              1                              4
                                 1



                                            
               VIII          II--|IV    II        D.S. al Fine
E|------------------------|------------------|--0--------------||
B|--------9---------------|------2------4----|--0--------------||
G|--1/-4/----8/-9h11p8----|--4---2-4----2----|--1-------------*||
D|--------------8------8--|--------6----4----|--2-------------*||
A|------------------------|--2----------2----|-----------------||
E|--0-----------8---------|------------------|-------0---------||
    1  4  4  2  2  4 2 1     3   2 1    4       1
                1            1   2 3    1       2
                1                       3
                                        1


Francisco Tarrega:  Adelita


******************************************************************************
******************************************************************************

| Back | | Top of page |