Guitar Tabs by Composers

Johann Sebastian Bach

Frederic Francois Chopin

Francisco Tarrega

Fernando Sor

Isaac Albeniz

Agustin Pio Barrios Mangore

Eduardo Sainz De La Maza

Mauro Giuliani

Stephen Foster

Edvard Grieg

Niccolo Paganini

Domenico Scarlatti

Ludwig Van Beethoven

Jacques Offenbach

Asto Piazzolla

Ralf Bauer - M�rkens

W. A. Mozart

Konstantine Andeson

Matteo Carcassi

Ferdinando Carulli

Miscellaneous


Other Pages

Seung Kook Oh

Guitar Chords

Best of Classical Guitar

Link To Us



Search

 


Bookmark Us

Digg This
Add to Google
Add to del.icio.us

Home >> Francisco Tarrega


Fanfare in A

******************************************************************************
Fanfare in A - Francisco Tarrega (1852-1909)

Fanfare
Author: Francisco Tarrega
Transcription by: Carlos Cordero
                  cachome@telcel.net.ve
                  http://www.geocities.com/vienna/waltz/2067/

               			"Fanfare"

Key Signature: A Major
Time Signature: 3/4 
Tablature Explanation At The End.

First Revision: 06/08/2000.


E-|--0.--||--5-9-5-0--5-9-5-0--7-10-7-0-|-9-12-9-0--9-12-9-0--7-10-7-0-|
B-|------||-----------------------------|------------------------------|
G-|------||*----------------------------|------------------------------|
D-|------||*----------------------------|------------------------------|
A-|------||--0--------------------------|-0----------------------------|
E-|------||-----------------------------|------------------------------|
             1 4 1 0  1 4 1 0  1 4 1 0
             m a m i  m a m i  m a m i
             p.

E-|--10-14-10-0--9-12-9-0--5-9-5-0---|---7-10-7-0--7-10-7-0--4-7-4-0---|
B-|----------------------------------|---------------------------------|
G-|----------------------------------|---------------------------------|
D-|----------------------------------|---------------------------------|
A-|---0------------------------------|---------------------------------|
E-|----------------------------------|---0-----------------------------|

E-|----4-7-4-0--4-7-4-0--5-9-5-0-----|---7-10-7-0--7-10-7-0--6-9-6-0---|
B-|----------------------------------|---------------------------------|
G-|----------------------------------|---------------------------------|
D-|----------------------------------|---------------------------------|
A-|----------------------------------|---------------------------------|
E-|----0-----------------------------|---0-----------------------------|

E-|-9-12-9-0--7-10-7-0--4-7-4-0--|--5-9-5-0--5-9-5-0--5-9-5-0--||--5.--|
B-|------------------------------|-----------------------------||------|
G-|------------------------------|----------------------------*||------| fine.
D-|------------------------------|----------------------------*||------|
A-|------------------------------|--0--------------------------||--0.--|
E-|-0----------------------------|-----------------------------||------|

..............................._

Tablature Explanation:
                                                                 cx------/
E-||----------|| |-------|---------|----(7----|-------|---------|---------|
B-||----------|| |-------|---------|----)7----|-------|---------|---------|
G-||*-repeat-*|| |--5/7--|--10p12--|----(5----|--1h4--|--<12>---|---------|
D-||*--------*|| |-------|---------|----)6----|-------|---------|---------|
A-||----------|| |-------|---------|----(6----|-------|---------|---------|
E-||----------|| |-------|---------|----)7----|-------|---------|---------|
                   Slur     pull     arpegiate  Hammer  Harmonic   Bar on
                            off                  on                x fret

......................................................_

E-|---Author:-Francisco-Tarrega--------------------|
B-|---Transcription-by:-Carlos-Cordero-------------|
G-|---E-Mail:-cachome@telcel.net.ve----------------|   
D-|---Look-More-Classical-Guitar-Tabs-at:----------|
A-|---http://www.geocities.com/vienna/waltz/2067---|
E-|---Enjoy!---------------------------------------|
......................................................_

******************************************************************************

| Back | | Top of page |