Guitar Tabs by Composers

Johann Sebastian Bach

Frederic Francois Chopin

Francisco Tarrega

Fernando Sor

Isaac Albeniz

Agustin Pio Barrios Mangore

Eduardo Sainz De La Maza

Mauro Giuliani

Stephen Foster

Edvard Grieg

Niccolo Paganini

Domenico Scarlatti

Ludwig Van Beethoven

Jacques Offenbach

Asto Piazzolla

Ralf Bauer - M�rkens

W. A. Mozart

Konstantine Andeson

Matteo Carcassi

Ferdinando Carulli

Miscellaneous


Other Pages

Seung Kook Oh

Guitar Chords

Best of Classical Guitar

Link To Us




Bookmark Us

Digg This
Add to Google
Add to del.icio.us

Home >> Johann Sebastian Bach


Air On The G String BWV 1068

******************************************************************************

Air On The G String - Johann Sebastian Bach

tab by Jonathon Clark - furgitarre@hotmail.com - December 2002

Tuning - EADGBE
Time Signature - 4/4


  |       |       |       |         |       |       |       |
|-0-------------------------------|-0-------------------------------|
|-1-------1-------1-------1-------|-1-------1-------1-------1-------|
|-0-------0-------0-------0-------|-2-------2-------0-------0-------|
|---------------------------------|---------------------------------|
|-3-------3-------2-------2-------|-0-------------------------------|
|---------------------------------|-------------------------3-------|

  |       |       |       |         |       |       |       |
|-0-------5-----------------------|---------------------------------|
|-1-----------6-----------0---1---|-0-------------------------------|
|-2---------------7---5-----------|-0-----------2---0---------------|
|---------3-------4-------0-------|-----------------3---------------|
|---------------------------------|---------------------------------|
|-1-----------------------2-------|-3-------3-------1-------1-------|

  |       |       |       |         |       |       |       |
|-3-----------------------3-------|-----0-------------------3---1---|
|-0-------------------------------|-----------------3---2---2-------|
|-0-------3---2---3-----------3---|-2-------3---2---0-------2-------|
|---------2-------0-------0-------|---------------------------------|
|---------------------------------|-4-------4-------0-------0-------|
|-0-------------------------------|---------------------------------|

  |       |       |       |         |       |       |       |
|-1-------------------0---1-------|-------------------------1---0---|
|-3-------3---1---3-----------3---|-----3-----------1---0-----------|
|-2-------2-------2-------2-------|-0-------2---0-----------0-------|
|-0-------3-----------------------|---------------------------------|
|-----------------3-------3-------|-2-------2-----------------------|
|---------------------------------|-----------------3-------3-------|

  |       |       |       |         |       |       |       |
|-0-----------------------2---3---|-------------0---0---------------|
|-1-------1-------1-------3-------|-1-------1-3---------3---3---1---|
|-0-------0-------0---------------|-2-------2-------2---------------|
|---------------------------------|-----------------4-------0-------|
|-3-------3-------2-------2-------|-0-------------------------------|
|---------------------------------|---------------------------------|

  |       |       |       |         |       |       |       |
|---------------------------------|---------------------------------|
|-0---------0-1---1-------0-------|---------------------------------|
|-0---2---2-------------------2---|-0-------------------------------|
|-----------------0-------4-------|-----------------0---3---2---0---|
|---------3---------------5-------|-----0---2---3-------------------|
|-3-------------------------------|-3-------------------------------|

  |       |       |       |         |       |       |       |
|---------------------------------|---------------------------------|
|---------------------------------|-0-------------------1-0---0-----|
|-0-------------------------------|---------0---------------2---0---|
|-0-------------------------------|-----------------3---------------|
|-2-------------------------------|---------------------------------|
|-3-------------------------------|-3-----------------------1-------|

  |       |       |       |         |       |       |       |
|-3-------------------------------|---------5-----------3---1---0---|
|---------------------------------|---------2---------------2-------|
|-----2---3---------------3-------|-2-------0-----------------------|
|-2-----------0---2-------0-------|-2---3-------2-------------------|
|---------4-----------------------|-4---------------4-------0-------|
|-0-------------------------------|---------------------------------|

  |h      |       |       |         |       |       |       |
|-0^1---------------0-------------|---------------------------------|
|-3-------------------3-1-0-------|---------0---------------3-------|
|-----------------------------2---|-1---2-------------------2-------|
|-0-------0-----------------------|---------0---2---3---2---3---0---|
|-----------------3-------3-------|-2---3---------------------------|
|---------------------------------|---------------------------------|

  |       |       |       |         |       |       |       |
|-----0---1---------------0-------|---------------------------h-p-p-|
|-----1---0---------------0-------|-3---1---0-------0---1-3-1^3^1^0-|
|-------------2---1---2-----------|-------------2-------------------|
|-2-------------------------------|-2-------3-------0-------2-------|
|---------0-------2---------------|-0-------------------------------|
|-4-----------------------4-------|---------------------------------|

  |       |       |       |         |       |       |       |
|---------------------------------|---------------------0-----------|
|---------------------------------|-1-----------------------3---1---|
|-2---------------0---------------|-2-----------------------0-------|
|---------------------------------|-0-------4-------2-------2-------|
|-0-------0-----------------------|---------------------------------|
|-----------------3-------3-------|-2-----------------------0-------|

  |       |       |       |         |       |       |       |
|-5-----------------------3---2---|-0---3---------------------------|
|-7-------------------------------|---3-------------------------0-1-|
|---------------------0---2-------|---------0-------2---------------|
|-0-------0---2---4---------------|-------------------------0-------|
|-----------------3-------3-------|-2-------2-------0---------------|
|---------------------------------|---------------------------------|

  |       |       |       |         |       |       |       |
|---------------------------------|-------------------------0-------|
|--0^1^0--------------------------|-1-------------------0-------3---|
|-------------2---0---------------|-0-------2---3---2-------2-------|
|-----------------3---------------|---------2-------3---------------|
|---------------------------------|---------------------------------|
|-3-------3---------------1-------|-0-------0-------1-------1-------|

  |       |       |       |         |       |       |       |
|-------------------------1---0---|-0-----------------------3---1---|
|-3-------0-------0---2---3-------|-3-------2---0---2---3---2-------|
|-2-----------2---0---------------|-4-------1-------2---------------|
|-0-------4-----------------------|---------------------------------|
|---------5-----------------------|-----------------0-------0-------|
|-2---------------3-------3-------|-4-------------------------------|

  |       |       |       |         |       |       |       |
|-1-------------------------------|-----------------------------1---|
|-3---2---3-----------------------|---------------------0---3-------|
|-2-----------2-------2-----------|-0---------------0-------0-------|
|-0-------0-------0-------3---0---|---------------------------------|
|-----------------3-------3-------|-2-------2---------------2-------|
|---------------------------------|-----------------3---------------|

  |       |       |       |         |       |       |       |
|-1-------0---------------0---1-3-|---------------------0---3---6---|
|-----3-------------------1-------|-1---------------1-------1-------|
|-0-------0---------------0-------|-2-----------------------0-------|
|---------------------------------|---------3-------2-------2-------|
|-3-------3-------1-------1-------|-0-------------------------------|
|---------------------------------|-----------------3---------------|

  |       |       |       |         |       |       |       |
|-6---5---------------------------|---------1-----------------------|
|-------------------------1-------|-0---3---------------------------|
|-5-------------------------------|---------2---------------2-------|
|-3-------3-------2-------2-------|-0-------0---------------3---2---|
|---------------------------------|-----------------3-------3-------|
|-----------------0---------------|---------------------------------|

  |       |       |       |         |       |       |       |
|-----------0-1---1---0-----------|-------------------h-p-----------|
|---------3-------------------3---|-1-0---------0---0^1^0-------1---|
|-0-------4-------0-------2-------|-0---2-----------0---------------|
|-0-----------------------3-------|---------3-----------------------|
|-2---------------3---------------|---------------------------------|
|---------3---------------1-------|-3-------1-------3-------3-------|

  |       |       |       |
|--------------------------------||
|-1------------------------------||
|-0------------------------------||
|-2------------------------------||
|-3------------------------------||
|--------------------------------||


******************************************************************************

| Back | | Top of page |