Guitar Tabs by Composers

Johann Sebastian Bach

Frederic Francois Chopin

Francisco Tarrega

Fernando Sor

Isaac Albeniz

Agustin Pio Barrios Mangore

Eduardo Sainz De La Maza

Mauro Giuliani

Stephen Foster

Edvard Grieg

Niccolo Paganini

Domenico Scarlatti

Ludwig Van Beethoven

Jacques Offenbach

Asto Piazzolla

Ralf Bauer - M�rkens

W. A. Mozart

Konstantine Andeson

Matteo Carcassi

Ferdinando Carulli

Miscellaneous


Other Pages

Seung Kook Oh

Guitar Chords

Best of Classical Guitar

Link To Us



Search

 


Bookmark Us

Digg This
Add to Google
Add to del.icio.us

Home >> Johann Sebastian Bach


BWV 1001 Presto Violin Sonata

*****************************************************************
Tab by by Daniel Routman Daniel.Routman@Colorado.EDU

Johann Sebastian Bach - BWV 1001 - Presto - Violin Sonata no 1 in G


E----6---------------------------------------------3------------
B--8---8---8-------------------------------------3---3----------
G--------7---7---7-----------------------------3-------5-3-2-0--
D--------------8---8-5-8-5---5---------------5------------------
A--------------------------5---5---5-------5--------------------
E--------------------------------6---6-3-6----------------------

--------------5---------------------3-6-3-------3-5-------------
------------7---4-3---------------3-------4---4-----6-------6---
----------7---------5-3-2-------3-----------5---------7---7-----
--4---4-7-----------------5---5-------------------------8-------
----5-----------------------5-----------------------------------
----------------------------------------------------------------

--3-------------------5-----------------------------------------
----4-------4---8-7-8-------------------6-5-6-8-----------------
------5---5-------------5---5---5-7-----------------------------
--------7-----------------5---8-----------------8---8-7-8-10-6--
--------------5---------------------8-------------8-------------
--------------------------------------8-------------------------

----------------------------------------------------------------
----4-3-4-6-----------------------------------------------------
--------------------------5---5-8-5-------------7---7-10-7-10---
------------6-------5---5---5-------------7---7---7-------------
--------------6---6---6-------------8---8---8-------------------
--6-------------6---------------------8-------------------------

--------------------------------------------------------------------
-----------------------------------------------------------10----10-
------------------8---8-12-8-12-------------------10----10----10----
-----------8----8---8--------------------10----10----10-------------
--10----10---10-----------------12----12----12----------------------
-----10----------------------------13-------------------------------

----------------------------------------------------------------
----------11-10-11----------11-10-11----------11-10-11----------
-------------------------------------------10-------------------
--8-10-12----------10-12-13----------12-13----------------------
----------------------------------------------------------------
----------------------------------------------------------------


----------------------------------------------------------------
----------11-10-11----------------------------------------------
--8-10-12-------------------12-10----------------10-------------
----------------------10-13-------13-12----13-------------------
-------------------12-------------------13----13----11----------
----------------------------------------------------------------


----------------------------------------------------6-5---------
--------------------------------------------6-5---------8-6-5---
------------------------------------5-----------7-6-------------
--5-7-8-----7---------------5-4-------8-7-5---------------------
--------5-------5-3-------------7-5-----------------------------
----------8---6-----6-5-3-5-------------------------------------


----------5-----5-3---------------------------------------------
--6---8-------------6-5-3-5---6---8-----8-6-5-------------------
----7---7---5-3-------------5---5-------------7-6---------------
------------------------------------8-7-------------------------
----------------------------------------------------------------
----------------------------------------------------------------


----------------------------------------------------------------
-----------------6-5----------------------3---------------------
--7---9---10---------7-6-4-6---7---9--------3-0---5-------------
----8---8----7-5-------------7---7----5-3-------2---------------
----------------------------------------------------------------
----------------------------------------------------------------


----------------------------------------------------------------
----------------------------------------------------------------
----3-0-----2---0-----------------------------------------------
--0-----2---------2-----3---3-2-0-------0---2-0-3---------------
----------3---1-----4-0-----------4-2-0---4---------------------
--------------------------3-------------------------------------

----------------------------------------------------------------
----------------------------------------------------------------
------------0-------0---2---------------------------------------
----2-0-3-2-----3-2---3-----5-4-7-5-8---8-7---------------------
--0-----------0-----------------------------10-8-7--------------
--------------------------6-----------9-------------------------


---------------------------------------------------------------|
------------------10-------------------------------------------|
---------------10----------------------------------------------|
------------12-------12------11---12---------------------------|
--8----8-12-------------12---10----9---------------------------|
----10---------------------------------------------------------|


Daniel Routman

| Back | | Top of page |