Guitar Tabs by Composers

Johann Sebastian Bach

Frederic Francois Chopin

Francisco Tarrega

Fernando Sor

Isaac Albeniz

Agustin Pio Barrios Mangore

Eduardo Sainz De La Maza

Mauro Giuliani

Stephen Foster

Edvard Grieg

Niccolo Paganini

Domenico Scarlatti

Ludwig Van Beethoven

Jacques Offenbach

Asto Piazzolla

Ralf Bauer - M�rkens

W. A. Mozart

Konstantine Andeson

Matteo Carcassi

Ferdinando Carulli

Miscellaneous


Other Pages

Seung Kook Oh

Guitar Chords

Best of Classical Guitar

Link To Us



Search

 


Bookmark Us

Digg This
Add to Google
Add to del.icio.us

Home >> Johann Sebastian Bach


BWV 997 Fugue Lute Suite No 2 in Cm

J.S.Bach BWV 997 Fugue 
Tuning : E A D G B E 	
Time Signature: 6/8
Extracted from a Midi file by Francisco Galera (fgalera@unav.es)
The original is (I believe) in Gm. This is transposed to Am

|--------0-|------------|------------|--------------|------------0-|----------------|
|--0-1-3---|------------|------------|--------------|1-----0-------|--------0-------|
|2---------|------------|0-----1-----|2---2---1---1-|----2---0---0-|2---------2-0---|
|----------|3-2-0-4-----|--3-2-0-----|--2-------4---|--2-------4---|5-4-2-1-------4-|
|----------|------3-2-0-|2-------3-2-|3-----2-------|0-------------|----------------|
|----------|------------|------------|--------------|--------------|----------------|


|--0-2-3-5-7-|------------|------------|0---0---------|3-----2-----7-|4-0-5---3-1-3-|
|------0-----|1-0---2-----|3-1-0-4-----|--0-----4-2-4-|--------------|------0-----5-|
|0---2-----0-|----2-0-----|------2-0---|0-------------|--------------|----5---------|
|2-------4---|--------4-2-|4---------4-|2-----4-------|2---2---0---0-|----3-0-2-----|
|------------|0---------0-|5---------2-|----3-0-----2-|--2-------3---|--3-----------|
|------------|------------|------------|--------------|0-------------|------------0-|


|----1-0-----5-|------3---------|--3-----1-------|0-------------|--0---------|
|2---3-3-1-0---|3-0---0-1-3-----|------1---0---0-|------3-------|1-1-3---1-0-|
|--2---------5-|5---2-0-0-----2-|4---------0-2---|----2---1---1-|2---4---2-1-|
|--------------|4-0-------3-2-3-|--2-0-2-0-------|--2-------4---|--------0-2-|
|0---1---0-----|--------0-------|----------------|3---3-2-------|0-0-2-3-----|
|------3-----0-|----------------|--------------3-|------------0-|------------|


|------------|------------|----------------|----------0-----|--------0-1-----|
|----------3-|--0-1-0-----|--------3-------|--1-0-1-3-------|--3-1-3---------|
|2-----------|------------|--2-1-2---------|----------------|----------------|
|--2-0-------|--3-0-0-----|----------------|------------0-2-|3-0-------------|
|------3-2-0-|2-------3-2-|3-----0-2-------|0-0---2---3-----|------3---2-0---|
|1-----2-----|3-----4-----|5-0-------4-2-4-|----------------|--------------3-|


|--3-1-0---0-2-3-|--7-5-3-2-0-|2-8-7-5-3-2-|3---0-2-------|3-----3-5-6-|------0-----|
|--------3-----0-|1-----------|3-----------|5-0-----4-2-4-|--5-6-------|2---3-------|
|----------0-2---|------------|------------|--------------|------------|--3-2-0-----|
|--2---3---------|------------|0-----------|--------------|--------3---|--------3-2-|
|3-------------2-|0-----4---0-|------6---2-|----3-0-----2-|------------|0---2-4-----|
|----------------|------------|------------|0-------------|0---------3-|------------|


|----0-1-3-5-|------------|--------------|------------------|--7---0-8-7-5-3-1-0-|
|--3---------|0---1-3-----|----1---0---0-|------3-----1-0-1-|0-------------------|
|------------|--2-0-------|--0-------2-0-|2-------0-------2-|--------------------|
|3-----0---3-|------3-2-0-|2-------0-----|0-3-2-3---2-------|--6-4-6-------------|
|5-----------|----0-2-----|3-------------|----------0-------|--------0---3---0---|
|--------0---|3-----------|------3-------|------------------|0-------------------|


|1-0---------------------|--8-7-5-----|--7-5-4-----|--5-3-1---0-|------------|
|----3-1-0---0-----------|------------|------------|----5---3-1-|3-0-----1-0-|
|----------2---2-0-------|--9-7-5-----|--7-5-4-----|------------|----2-1-----|
|0---3---0---------3-2-0-|2-------3-2-|0-------2-0-|------0---2-|3-------2-0-|
|----------------2-------|3-----------|------------|3---4-------|------------|
|------------3-------3---|------------|------------|------------|------------|


|0-----1-0---|------------5-3-1-0-|--0-1-0-----------------|0-----------|--------2-4-|
|--3-1-----3-|1-3-0-1-0-----------|3-------3-1-0-1-3-1-0---|----------0-|1-----------|
|2-----2-----|2---1-----2---------|----------------------2-|------1-2---|------------|
|------0-2-3-|2-0-2-----3---------|3-----------------------|--2-4-------|--------0-2-|
|3-2-0-------|--------------------|------------------------|------------|--0-2-3-----|
|------------|--------------------|------------1-----------|0-----------|------------|


|5-------7-8-|1-----2-----|3-1-0-4-----|5-0-5---4-2-4-|5-------------------|
|----0-1-----|------------|3-----3-1-0-|------0-------|5---3-1-0-1-0-1-0---|
|--2-----7-9-|2-----2-----|------------|5---5---------|--2-------1-------2-|
|3-----------|0-2-0-------|------2-----|----3-0-2---0-|--3-0-2-------------|
|----------7-|------3-2-0-|2-----------|0-------------|3-------------------|
|------------|------------|------------|--------------|----------0---------|


|----------|--1-0-------------------|----------------0---0-|1-5-3-1-0---------------|
|----1-0-1-|3-----3-1-0-------------|----------------1-3---|0-------1-3-1-0-1-----1-|
|2---------|------------2-1-2-------|----------------------|----0-------------0-2---|
|2---------|------------------2-0-3-|2-0-----0---------3---|0-------2-------2---3---|
|3---0-----|--------0-------3---2---|----3-2-0-3-2-0-0-----|------------------------|
|5-0-------|4-----------------------|----0-------0---------|------------------------|


|----------------3-------|----1-----------0-------|----5-5---3-2-5-3-2-|
|0-----------------------|--------1-0-------0-3-1-|0-----4-------------|
|--2-0-------------0-3-2-|0-----2-----2-0---------|--2---4-------------|
|0-----3-3-2-0-----------|--3-0-------------------|------4-----1---2---|
|--------3-----3---------|--------------------0---|2---3---4-----------|
|----3-----------0---1---|--------3-------4-------|--------------------|


|0-----------7---5---3---|2---0-------8---7---5---|3---2---3-2-0---0-------|
|--3-1-0-1-------------2-|--2---2---------------5-|--5---5-------4---------|
|----0-----5---5---5-----|--------8-8---8---8-----|------------------0-----|
|4-----------------------|------------------------|--------------------4-2-|
|--------0---0---0---1---|1---1---------------3---|3---3---4---2---1---2---|
|------------------------|--------7---7---7-------|------------------------|


|----0---0-------|--------------------|------------------|----------0-----|
|------4---0-----|----4-1-0-------3-0-|--------2-----1-0-|--------0-------|
|--2---------2-0-|----------2-1-2-----|2-1---1-2-2-0-----|2-1-2---0---2---|
|4---------------|4-2-----------------|----4---------4---|2---1-4-2-0---3-|
|----2-----------|------------0-------|0---2---0---------|------------3---|
|--------0-------|2-3-2---4-------4---|------------------|----------------|


|----------------------|------1-0---------0-|----------------0-|------------5---|
|0-1-3-0-1-0-1-3-0-1---|--3-------3-2-3-----|3-2-0-2-3---3-----|3-2-3-0-2-----0-|
|--------------------2-|----1---------------|----------2-------|----------2-----|
|0---2-------2---0-----|------------0---5---|0---2---4-0---3---|--------2---0---|
|--------0-----------3-|2-0-2---4-------4---|--------5---3-1---|0-------0-------|
|--------------------5-|3-1-0-----------5---|------------------|----4-----3-----|


|------------------------|------------------------|--------------------3---|
|2-------3-----------3---|--------------------1---|----------1-0---0-3---1-|
|----0-----0-------2---0-|------2---0-------2---0-|------2-------2---------|
|2-3---2-3---3-2-3-------|3-2-3---0---4-2-4-------|4-2-4---0---------------|
|----0---5---------------|5---3---1---0-----------|0---5-------------------|
|0-----------------------|----------------3---2---|--------3---------------|


|--------------------1---|----------1-0---0-3-8-7-|5-4-5-8---0---------7-5-|
|0---0-3---1-0---0-3---1-|0---0-3-------3---------|--------3---3-1-3-6-----|
|0-2-----0-----2---------|--2-----0---------------|5---2---------------0---|
|----3---2---0-----------|0-----------------------|--------3---------------|
|----------------3---2---|--------3---3---2---0---|------------2---0-------|
|------------------------|----3-------------------|------------------------|


|3-1-3-7-----------0-5-3-|1-0-1-5-------------1---|------------0---2---4---|
|0-------1-3-1-0-1-------|--------0-1-0---0-3-----|------0-----------------|
|----0-------------------|2-------------2-------2-|1---1-------------------|
|--------2-----------3---|----3---0---3---0-------|0-4-----2-2-0-2---0---0-|
|------------0-----------|--------------------2---|----2-----------3---2---|
|----------------3-------|------------------------|--------4---------------|


|5---7-------------------|------------------------|--------0---0---|--0-2---3---0-2-|
|--------1-----------2---|--------3-0---1---0-4---|--------0-0-----|4-----4---0-----|
|----------2-0-3---2---0-|------------2---0-----2-|--0-------------|----------------|
|--0---0---------3---2---|--3---2-------------4---|------4---------|----------------|
|0-------0---------------|0-----------------------|2---0-------3-0-|2---2-------3-0-|
|----4-------------------|----3---1---------------|--------3-------|--------0-------|
 

|--0-2-----2-0---0-----0-|------------------------|------------0---------3-|
|4-----4-0-----4---0-----|3-1-3-----3-1-0-1-------|0---0-----0---3-1-0-----|
|--------------------2---|------2-0---------0---5-|--2-----------------2---|
|----------------2-------|------------2-------4---|------4-2-----------2---|
|2---0-------------------|2---2-----------0---5---|5-------3-----------3---|
|--------3---3-------2---|--------0---------------|----3-------------------|
 

|2-0---0---2-3-5-|------3-5-7-|--0-----5---3---2-|--0-------0---0---0---0-|
|----4---4-4-5-7-|1-0---5-7-8-|4-----1---0-------|------4-3---3---3---2---|
|----------------|------------|2-0-----------2---|0-----------------------|
|--------4-------|2-1---------|------------------|----4---2-----------2---|
|--------2-------|----2-------|----2-------------|2---0---------------0---|
|----------------|------------|------------------|--------4---2---0-------|


|--0---0---2---2---2---4-|--4---4-5-0---0---0---0-|1---3---1-----1---1-----|
|2---2---1---1---1---0---|0---0-------1---0-------|--3---2---3-0---------3-|
|------------------------|--------5-----------2---|----------------2---0---|
|--------1-----------0---|------------2---0-------|--------0---0-----------|
|0---0---0---0---0---0---|0---0---0-----------4---|2---0-----------3---2---|
|------------------------|------------------------|------------------------|


|--1---1-0-----0---0-----|--0---0-----------------|------------------------|
|1---0-----1-----------1-|--------3-0---3---3---0-|--3---3-1-----1---1-----|
|------------2---0-------|3---2-------1-----------|2---1-----2-------------|
|--------------------3---|----------------3---2---|------------3---2---0-3-|
|0-------3---3---2---0---|--------2---2---0-------|--------0---0-----------|
|----3-------------------|3---1---------------4---|2---0-----------3---1---|

                                                                      *
|----------4-5-7-|1-0---5-7-8-|--------1---0-----|--------------------5---|
|--1-0-3---------|------------|3-1---3---1---0-3-|--1---0-----------------|
|2-------1-4-5-7-|2-1---5-7-9-|1-2---------------|2---1---0-2-0-2-0-2---2-|
|----0-----------|------------|------------------|2---0---------------4---|
|----------------|------------|------------------|--------4---2---0---5---|
|0-------0-------|----0-------|----0-------------|------------------------|

         *           *
|--------4-----------3---|--------1-----------2---|--------3-0---1---0-4---|
|----------0---0---0---2-|--2---2---3-1-4---3---1-|------------3---1---0-3-|
|--2---2-----------------|----------------3---2---|--3---2-----------------|
|4---4---3---3---3---2---|2---2---0---------------|0-----------------------|
|--------5-----------5---|------------------------|----3---1---------------|
|------------------------|------------------------|------------------------|

 
|--------5---5---|4-5-7-4-8-----7-|--------0-7-5-4-5-0---5-|3-1-3-----3-1-0-1-----1-|
|--1---0-5-5-----|----------------|----0---------------3---|------3-1---------1-0---|
|----------------|------------2---|1-2---1-----------------|------------2-----------|
|2---0-------3-0-|2---------2-3-0-|2---0-----------3-------|2---------------0-------|
|--------3-------|--------0-------|--------3---3-------2---|--------0---------------|
|----------------|----0-----------|------------------------|----0---------------3---|


|0---0-----0-5-3-1-0-----|----------------------|------------0-----------|
|--3---0-------------3-1-|0-------3---1-0-3-1-0-|------1---------3---1---|
|0-------2---------------|--2-1-2-4-------------|2-1-2-------------------|
|------------------------|--------6-------------|--------3-3-0-3-0-3-1-4-|
|----3-------------------|------------------0---|2---3---5---------------|
|--------1---------------|--------0-2---4-------|------------------------|


|------------1---0-------|------------2-4-5-------|----5-4-5-------|--0---------|
|0-------------------3---|1---0---1-4-------1-0---|0-3---------0-1-|3-----------|
|----2---1-1---1---1---2-|--2---2---------------2-|----------2-----|------------|
|1-4-1-4-2---2---2---3---|3---3---4---2---1---2---|----------------|----3-2-0-4-|
|------------------------|------------------------|--------0-------|----------3-|
|------------------------|------------------------|----0-----------|------------|

 
|------------|------------|--------------|----0---------|----------0-2-3-|
|------------|------------|------1-----0-|--------------|0-------------0-|
|----0-----1-|----2---2---|1---1-----2---|0---0-2-------|--2-0---0---2---|
|------3-2-0-|------2-----|--4-----2-----|--4-----4-2-1-|------4-2-------|
|2-0-2-------|3-2-3-----2-|------0-------|--------------|----------------|
|------------|------------|--------------|--------------|----------------|

 
|5-7---------|------------|----0---0---|------3-----2-|----7-4-0-5---|3-1-3-----1-0-|
|----1-0---2-|----3-1-0-4-|------0-----|4-2-4---------|------------0-|----5-2---3-3-|
|--0-----2-0-|----------2-|0---0-------|--------------|----------5---|--------2-----|
|4-----------|4-2-4-------|--4-2-----4-|------2---2---|0---0-----3-0-|2-------------|
|----0-------|--0-5-------|--2-----3-0-|----2---2-----|--3-----3-----|------0---1---|
|------------|------------|------------|------0-------|--------------|----0-------3-|


|----5-------3---|--------3-----1-|------0-------|--------0-----|------------|
|1-0---3-0---0-1-|3-----0-----1---|0---0-------3-|------1-1-3---|1-0---------|
|----5-----2-0-2-|----2-----------|0-2-------2---|1---1-2---4---|2-1-2-------|
|----2-4-0-------|3-2-3---2-0-2-0-|--------2-----|--4-----------|0-2---2-0---|
|0---------------|----------------|------3---3-2-|------0-0-2-3-|----------3-|
|----------------|----------------|----3---------|----0---------|----1-----2-|


|------------|--------------|----------------0-|------------0-1-|------3-1-0---0-|
|--3---0-1-0-|------------3-|--------1-0-1-3---|------3-1-3-----|------------3---|
|------------|------2-1-2---|------------------|----------------|--------------0-|
|------3-0-0-|--------------|------------------|0-2-3-0---------|------2---3-----|
|2-0-2-------|3-2-3-----0-2-|------0-0---2---3-|----------3---2-|0---3-----------|
|----3-----4-|----5-0-------|4-2-4-------------|----------------|--3-------------|


|2-3---7-5-3-|2-0-2-8-7-5-|----0---0-2-|------3-0-1-3-|5-6-------0-|--------0-1-|
|--0-1-------|----3-------|8-7-8-0-----|4-2-4---------|----2---3---|------3-----|
|2-----------|------------|------------|--------------|------3-2-0-|------------|
|------------|----0-------|------------|--------------|------------|3-2-3-----0-|
|--2-0-----4-|--0-------6-|--------3-0-|----2---------|----0---2-4-|----5-------|
|------------|------------|--7-0-------|------0-------|1-3---------|------------|

 
|3-5---------|------------|------------------|--------7---0-8-7-|
|----0---1-3-|--------1---|0---0-------3-----|1-0-1-0-----------|
|------2-0---|------0-----|--2-0-2-------0---|----2-------------|
|----------3-|2-0-2-------|0-----0-3-2-3---2-|--------6-4-6-----|
|--------0-2-|----3-------|----------------0-|--------------0---|
|0-1-3-------|----------3-|------------------|------0-----------|


|5-3-1-0-1-0-------------|----------8-7-5-|------7-5-4-|------5-3-1-|--0---------|
|------------3-1-0---0---|----------------|------------|--------5---|3-1-3-------|
|------------------2---2-|0---------9-7-5-|------7-6-4-|------------|------4-2-1-|
|--------0---3---0-------|--3-2-0-2-------|3-2-0-------|2-0-------0-|--2-3-------|
|3---0-------------------|2-------3-------|------------|----3---4---|------------|
|--------------------3---|----3-----------|------------|------------|------------|

 
|----0-----1-|0---------------|5-3-1-0---0-1-0---------|--------0-------|------------|
|1-0---3-1---|--3-1-3-0-1-0---|--------3-------3-1-0-1-|3-1-0-----------|--0-1-------|
|----2-----2-|----2---1-----2-|------------------------|------2-------1-|2-----------|
|2-0-------0-|2-3-2-0-2-----3-|--------3---------------|----------2-4---|------------|
|----3-2-0---|----------------|------------------------|----------------|------0-2-3-|
|------------|----------------|--------------------1---|--------0-------|------------|

 
|2-4-5-------|7-8-1-----2-|----3-1-0-4-|----5-0-5---|4-2-4-5---------|------------||
|--------0-1-|------------|----3-----3-|1-0-------0-|------5---3-1-0-|1-0-1-0-----||
|------2-----|7-9-2-----2-|------------|----5---5---|--------2-------|1-------2-2-||
|0-2-3-------|----0-2-0---|----------2-|--------3-0-|2---0---3-0-2---|----------2-||
|------------|--7-------3-|2-0-2-------|----0-------|------3---------|----------3-||
|------------|------------|------------|------------|----------------|0---------5-||

| Back | | Top of page |