Guitar Tabs by Composers

Johann Sebastian Bach

Frederic Francois Chopin

Francisco Tarrega

Fernando Sor

Isaac Albeniz

Agustin Pio Barrios Mangore

Eduardo Sainz De La Maza

Mauro Giuliani

Stephen Foster

Edvard Grieg

Niccolo Paganini

Domenico Scarlatti

Ludwig Van Beethoven

Jacques Offenbach

Asto Piazzolla

Ralf Bauer - M�rkens

W. A. Mozart

Konstantine Andeson

Matteo Carcassi

Ferdinando Carulli

Miscellaneous


Other Pages

Seung Kook Oh

Guitar Chords

Best of Classical Guitar

Link To Us




Bookmark Us

Digg This
Add to Google
Add to del.icio.us

Home >> Johann Sebastian Bach


BWV 998 Allegro Lute Suite in Eb

BWV 998, Allegro, Lute Suite in Eb - JS Bach (1685-1750)
******************************************************************************

Allegro from Suite in Eb (BWV998)

by J.S. Bach   Tuning: E A D G B E  Time Signature: 3/8

Revised by Francisco Galera (fgalera@unav.es)

|------------|------------|------------|------------|------------|
|--3-2-0-----|--0---------|------------|------------|----3-2-3---|
|--------2-0-|----2-0-----|------------|----0-----0-|--2-------2-|
|0-----------|4-------4-2-|0---0-2-4-0-|2-4---0-----|4-----------|
|------------|5-------4---|2-4-----0---|--------4---|5-----------|
|------------|------------|------------|3---0---5---|----0---2---|



|------------|------------|------------|------------|--------0---|
|0-3-2-0-----|------------|----0-2-3---|----0-----0-|----2-3---0-|
|--------2-0-|--0-2-----2-|----------2-|1-2---1-----|--1---------|
|------------|4-----4-2---|0-4-0-------|--------4---|2-----------|
|----0---0---|5-------4---|2-------2---|--------5---|4-------4---|
|3-----------|------------|------------|0-----------|----0-------|



|------------|------0-2---|------0-2---|------0-2---|--------0---|
|--0-2-----2-|----3-----3-|0-2-3-------|--0-3-------|--0-2-3-----|
|2-----2-0---|--2---------|----------2-|1---------1-|2---------0-|
|------------|4-----------|0---0---0---|------------|------------|
|------------|5-----------|------------|2---2---2---|4---4---4---|
|2-------0---|------------|------------|------------|------------|



|--------0---|------------|------------|--5-4-2-0---|--2-0-------|
|----2-3-----|----0-2-3---|----0-2-3-0-|2---------3-|2-----3-2-0-|
|--2---------|1-2---------|--1---------|6-----------|2-------1---|
|4---------4-|----------4-|2-----------|--------2---|------------|
|0---0---0---|2---2---2---|------------|0---4-------|------------|
|------------|------------|4---4---4---|------------|------------|



|------------|------------|----------0-|2---0-2-4-5-|7-5-4-2-0---|
|------0-2---|0-2-3-----3-|2---0-2-3---|--3---------|----------3-|
|2-1-2-----2-|------2-1---|--2---------|------------|------------|
|4-------2---|0-------2---|------------|0-----------|------------|
|------------|----2-------|0-----------|------------|------------|
|------------|------------|------------|------------|4-----------|




|------|------------|------------|0-------5---|3-0---------|
|2-3-0-|--------0---|2-------3---|------------|----3-2-0---|
|--4-1-|--2-1-2---2-|--2-1-2---2-|--2-1-2---2-|----------2-|
|--0---|------------|------------|------------|------------|
|0-----|0-----------|----0---2---|4-----------|----0---4---|
|----0-|------------|------------|------------|------------|



|2-3-3---5-|5-|--0---0-2---|0-------0-2-|3---0-3---3-|2-3-5-2----|
|----------|5-|----3-----3-|--2---2-----|--3-----2---|--------3--|
|----------|6-|------------|----2-------|------------|-----------|
|0-----2---|--|------------|------------|------------|0----------|
|----2-----|0-|0-----------|----4---0---|2---4---0---|-----------|
|----------|--|------------|------------|------------|----------0|



|------------|------------|------------|------------|--7-8-7-----|
|--------0---|----------0-|1-----1---1-|0-1-3-0-----|--------108-|
|--2-0-2---0-|2-------2---|--0-2-------|--------0---|------------|
|------------|0-4-0-4-0---|--------4---|----------4-|2-----------|
|------------|------------|--------5---|------------|------------|
|2-------3---|----2-------|0---2-------|3-----------|------------|



|--7-8-7-----|0-7-8-7---0-|--0-2-------|------------|------------|
|7-------8-7-|--------7---|3-----------|--0-1-0-----|--0-1-0-----|
|------------|------------|------------|--------2-0-|--------0---|
|0-----------|------------|------------|--------2---|4-------0-4-|
|------------|------------|2-----0-----|------------|5-----------|
|------------|8-----------|--------3-2-|0-----------|------------|


|
|------------|------------|--3-5-3-----|--2-3-2-----|--0-2-0-----|
|--0-1-0-----|------------|--------1-0-|--------0---|------------|
|------------|------------|------------|2---------2-|0-------2-0-|
|2-------4-2-|1-2-4-------|--------2---|--------0---|------------|
|3-------3---|2-----0-----|------------|3-----------|2-------3---|
|------------|--------3-2-|0-----------|------------|------------|


tt
|--0---------|0---------0-|2-0---0-2-5-|3-2-0-2---|0-----|
|----4-0-2-4-|--0---0-4---|----4-------|--------4-|------|
|------------|----2-------|------------|------2---|0-----|
|4-----------|------------|------------|--------4-|------|
|0---2---0---|------------|3---2---0---|2-----0-2-|----2-|
|------------|3---2---0---|------------|----------|0-3---|



|------------|------------|------------|----0-------|------------|
|------------|------------|0---------0-|2-3-------3-|2-------0-2-|
|----------1-|2-------1-2-|--------2---|------2-1---|--2-1-2-----|
|--2-1-2-4---|--2-1-2-----|--2-1-2-----|------------|------------|
|------------|------------|------------|0---4-------|0-----------|
|0-----------|2-----------|4-----------|--------0---|------------|



|------------|0---------0-|2-3-5-----3-|--5-7-5-----|0-5-7-5---0-|
|3-------2-3-|--------3---|------3-----|7-------8-7-|--------7---|
|--2-1-2-----|--2-1-2-----|--------6---|------------|------------|
|------------|------------|0-----------|0-----------|------------|
|2-----------|4-----------|--------0---|------------|4-----------|
|------------|------------|----2-------|------------|------------|




|--5-7-5-0---|----0-------|------------|------------|------------|
|----------2-|2-3---------|----0-------|----0-------|----0-------|
|7-----------|------------|--2---2-0---|--2---2-----|--2---2-----|
|------------|------------|0-------0-4-|2-------4-2-|0-------2-0-|
|------------|0-----------|------------|4-------4---|2-------2---|
|7-----------|------3-2-0-|------------|------------|------------|



|------------|--0---2---2-|----0---2---|--2-0-3---3-|--0-2---3---|
|------------|----3---1---|0-4---0-----|--------3---|2-----2---0-|
|------------|------------|----------2-|0-----------|2-----------|
|--0-2-------|--------0---|------------|--------2---|--------2---|
|4-----2-0---|------------|--------2---|------------|------------|
|5---------3-|2-----------|3-----------|0-----------|------------|



|--3-2-5-0-5-|--2-3---5---|7-5---9---10|0-109-7-----|--5-7-5-----|
|------------|3-----3---3-|----8---7---|--------108-|7-------8-7-|
|2-----------|------------|------------|------------|------------|
|4-----------|------------|--------0---|------------|0-----------|
|--------0---|2-----------|------------|0-----------|----4-------|
|------------|--------2---|3---0-------|----7---9---|--------7---|



|0-5-7-5---0-|--5-7-5-0---|--5-7-5-----|--2-0-2-3-2-|0-7---------|
|--------7---|------------|--------3---|0-----------|----3-2-3-0-|
|------------|7---------7-|6---------5-|------------|------------|
|------------|------------|------------|------------|------------|
|--------0---|----0-------|0-----------|------------|------------|
|9---7-------|7-------3---|----3---2---|3---3---3---|4---4---4---|




|------------|--0-------0-|------------|------|------------|
|2-------0---|------------|--3-2-0-----|------|------------|
|--2-1-2---2-|0---0---0---|--------2-0-|--0---|------------|
|------------|------4-----|4-----------|4---2-|0-0---0-2-0-|
|0---0---0---|4---4---4---|5-----------|0---0-|----4-------|
|------------|------------|----2---3---|--3---|------------|



|------------|------------|------------|--0---|--|
|------------|--------0---|1-----------|0---2-|3-|
|--------0---|2-----------|--2-0-------|--0---|--|
|4-0-0-0---0-|--0---0---0-|----0-4-2-0-|----2-|4-|
|----4-------|----4-------|------------|----0-|5-|
|--------0---|2-----------|--------2---|3-0---|--|

******************************************************************************

| Back | | Top of page |