Guitar Tabs by Composers

Johann Sebastian Bach

Frederic Francois Chopin

Francisco Tarrega

Fernando Sor

Isaac Albeniz

Agustin Pio Barrios Mangore

Eduardo Sainz De La Maza

Mauro Giuliani

Stephen Foster

Edvard Grieg

Niccolo Paganini

Domenico Scarlatti

Ludwig Van Beethoven

Jacques Offenbach

Asto Piazzolla

Ralf Bauer - M�rkens

W. A. Mozart

Konstantine Andeson

Matteo Carcassi

Ferdinando Carulli

Miscellaneous


Other Pages

Seung Kook Oh

Guitar Chords

Best of Classical Guitar

Link To Us




Bookmark Us

Digg This
Add to Google
Add to del.icio.us

Home >> Miscanelous


Tbot

tbot
andrewt31@hotmail.com

This song is from Noad's '100 Classical Songs for the Guitar', or
something like that. I lent the book to a friend a year ago, haven't
seen it since. The book is not in tabulature, so the conversion is mine.

This is THE best song I know, and it is also easy to play. I've been stealing
songs from the archive for years, figured I had better return the favor.

My first TAB attempt, apologies offered in advance. Give all of the
notes the same time interval [except the G# in line 6 of 2nd part - Weed],
play it moderately fast, and you will figure it out how it is supposed to
sound. Where there are three notes in sequence: (-2-2-2-) the book instructed
the musician to play them (a-m-i) as an exercise.

Tbot

E|------------------------------------1-------0-------------------
B|----------------------------------------------------3-------1---
G|--2-2-2---2-2-2---2-2-2---2-2-2---2---2---2---2---1---1---2---2-
D|----------------3-------2-------0-------------------------------
A|0-------3-------------------------------3-------2-------0-------
E|----------------------------------------------------------------


E|------------------------------------------------------------0---
B|----0-------0-------0-------0-------1-------1-------0-----------
G|--2---2---2---2---2---2---2---2---2---2---2---2---2---2---1---1-
D|0-------1-------2-------3-------2---------------2---------------
A|----------------------------------------------------------------
E|----------------------------------------0---------------0-------


E|------------------------------------1-------0-------------------
B|----------------------------------------------------3-------1---
G|--2-2-2---2-2-2---2-2-2---2-2-2---2---2---2---2---1---1---2---2-
D|----------------3-------2-------0-------------------------------
A|0-------3-------------------------------3-------2-------0-------
E|----------------------------------------------------------------


E|------------------------------0-------0-1-0---0-5--|
B|----0-------0-------1-------0-------1-------4------|
G|--2---2---2---2---2---2---1-------2----------------|
D|0-------1-------2----------------------------------|  
A|--------------------------------0------------------|
E|------------------------0--------------------------|

2nd part of song
E|--------------------------------------------0-------1-------2---
B|--1-1-1---1-1-1---1-1-1---1-1-1-----3-----2---2---3---3---1---1-
G|----------------2-------0---------2---2-------------------------
D|--------2-----------------------3-------2-------0-------0-------
A|3---------------------------------------------------------------
E|----------------------------------------------------------------


E|----3-------3-------2-------1-------0-----------------------0---
B|--0---0-------------------------------------3-------1-----------
G|0---------0---0---0---0---0---0---0---0---0---0---0---0---0---0-
D|----------------------------------------0-------2---------------
A|----------------0-------2--------3----------------------3-------
E|--------3-------------------------------------------------------


E|--------------------------------------------------0-0-0---------
B|----------2-2-2---3-3-3-----------0-0-0---4-4-4-----------3-3-3-
G|--2-2-2-------------------5-5-5-------------------------1-------
D|3-------2-------0-------4-------5-------3-------2---------------
A|----------------------------------------------------------------
E|----------------------------------------------------------------
                                                                     

E|--------------------------------------0-1-0-0-0-4-0-0-0-7-0-0-0-5-0-0-0-
B|--1-1-1---1-1-1---0-0-0-------------0-----------------------------------
G|2-------------------------2-2-2---1-------------------------------------
D|----------------0-------1-------2---------------------------------------
A|--------0---------------------------------------------------------------
E|----------------------------------------------------------------0-------


E|1-0---0---0---0---0---0-------0-1-0-0-0-4-0-0-0-7-0-0-0-5-0-0-0--
B|----4---3---1---0-----------0------------------------------------
G|--------------------2-----1--------------------------------------
D|------------------------2----------------------------------------
A|-----------------------------------------------------------------
E|--------------------------------------------------------0--------


E|1-0---0---0---0---0---0-------0---0---0---0---0---0---0-
B|----4---3---1---0---------------------------------------
G|--------------------2---1-------------------------------
D|----------------------------3---2---1---2---0-----------
A|------------------------------------------------3---2---
E|--------------------------------------------------------


E|------------------------------------1-------0-------------------
B|----------------------------------------------------3-------1---
G|--2-2-2---2-2-2---2-2-2---2-2-2---2---2---2---2---1---1---2---2-
D|----------------3-------2-------0-------------------------------
A|0-------3-------------------------------3-------2-------0-------
E|----------------------------------------------------------------


E|--------------------------------------------0-------1-------0---
B|--------------------2-------2-------3---------------------------
G|----3-------3-----0---0---0---0---2---2---2---2---2---2---2---2-
D|--3---3---3---3-2-------2-------3---------------0-------2-------
A|5-------5-------------------------------4-----------------------
E|----------------------------------------------------------------


E|------------------0-0-0----------------------------------------
B|--4-4-4---4-4-4-----------3-3-3---1-1-1---0-0-0------------1---
G|--------2-------1---------------2-----------------2-2-2--2---2-
D|4-----------------------2---------------2-------3--------------
A|--------------------------------------------------------3------
E|---------------------------------------------------------------


E|------------------------------0-------0-1-0---0-5---||
B|----0-------0-------1-------0-------1-------4-------||
G|--2---2---2---2---2---2---1-------2-----------------||  repeat
D|0-------1-------2-----------------------------------||  2nd part
A|--------------------------------0-------------------||
E|------------------------0---------------------------||

| Back | | Top of page |